WePlayCoD


Welcome to WePlayCoD, where we're bringing Call of Duty fans on Twitter together. Check us out on Twitter @ http://twitter.com/WePlayCoD.

Feel free to register and participate in our discussions about all things Call of Duty. Otherwise, enjoy the information and enjoy your stay!

Thanks for stopping by!
Latest topics
» WePlayCoD Forums Are Moving
by WePlayCoD Thu Apr 29, 2010 4:11 pm

» Oddworld: Abe's Oddysee
by SephirothTM Thu Apr 29, 2010 12:29 pm

» Shadow Company
by SergeantHatredx Thu Apr 29, 2010 10:25 am

» *[Multi-Division Clan recruiting]*
by SergeantHatredx Thu Apr 29, 2010 10:18 am

» aXXo clan
by SergeantHatredx Thu Apr 29, 2010 9:55 am

» Turtle Beach Problem
by SergeantHatredx Thu Apr 29, 2010 9:42 am

» First look at next Call of Duty this friday on GameTrailers
by Horrorman Thu Apr 29, 2010 9:04 am

» Whats some of your ideas on new maps?
by kingchris20 Thu Apr 29, 2010 12:05 am

» Weapon Attatchments
by Mr JM Wed Apr 28, 2010 9:54 pm

» Kill streaks?
by Bevo2506 Wed Apr 28, 2010 6:11 pm

» Camping SOB's
by Bevo2506 Wed Apr 28, 2010 6:03 pm

» aXXo clan 3-0
by Bevo2506 Wed Apr 28, 2010 6:02 pm

» SNpr clan looking for snipers
by Da_otherfishes Wed Apr 28, 2010 12:15 pm

» Wats ur best K/D ratio?
by Bevo2506 Wed Apr 28, 2010 12:06 pm

» Best Gun On MW2 So Far....?
by Bevo2506 Wed Apr 28, 2010 12:00 pm

» Whats up weplayCoD Commun.
by GoD_GraveDancer Wed Apr 28, 2010 9:53 am

» Animated Avatar
by Mr JM Wed Apr 28, 2010 8:25 am

» MY Level
by IDONTEAT Tue Apr 27, 2010 6:35 pm

» ALL-Around Gaming Site
by IDONTEAT Tue Apr 27, 2010 1:07 pm

» CoD4 server with MW2 weapons :)
by MaTtKs Mon Apr 26, 2010 10:40 pm

» wats ur fav Mw2 perk & gun?
by Bevo2506 Mon Apr 26, 2010 1:43 pm

» Flash vs Stun?
by Bevo2506 Mon Apr 26, 2010 1:19 pm

» Any1 Wanna Clan War?
by Bevo2506 Mon Apr 26, 2010 1:18 pm

» Heads Up!
by IDONTEAT Mon Apr 26, 2010 1:10 pm

» MW2 Recruitment
by IDONTEAT Mon Apr 26, 2010 11:28 am

» New Member to the site, love it
by IDONTEAT Mon Apr 26, 2010 11:13 am

» How long does it take you to prestige?
by IDONTEAT Mon Apr 26, 2010 11:10 am

» All-Around Gaming Site
by IDONTEAT Mon Apr 26, 2010 11:02 am

» Gameplay Videos
by lokifeyson Sun Apr 25, 2010 6:34 am

» What is the Best Sniper in MW2?
by IDONTEAT Sat Apr 24, 2010 12:07 am


free web counter

Guitar Tabs For "Beauty Of Annihiliation" by Kevin Sherwood

View previous topic View next topic Go down

Guitar Tabs For "Beauty Of Annihiliation" by Kevin Sherwood

Post by carbonfibah on Mon Aug 31, 2009 2:15 pm

Beauty of Annihilation
featured in Call of Duty: World at War's Nazi Zombie mode.
(Shi No Numa death song)
(Der Riese easter egg song)


written, produced, mixed,
and all instruments performed by Kevin Sherwood at Treyarch.
http://www.facebook.com/pages/Kevin-Sherwood/119272406300?ref=nf
http://twitter.com/newdnewbs

Vocals by Elena Siegman
http://www.facebook.com/pages/Elena-Siegman/110770233598?ref=sgm
http://twitter.com/elenaYAY

Vocal Engineering Collin Ayers

Mastered by Oscar Zambrano at
http://zampolproductions.com

Additional production by Brian Tuey. Treyarch's Audio director
http://briantuey.blogspot.com/


*******************************************************************
Transposition:
I have this transcribed for an 8 string guitar that is tuned down a
whole step. This is what I originally used for the song. I realize
that most people probably don't have an 8 string so if you want to
play the song on a six string then you will have to transpose the
6th and 7th strings in my tablature.

example of octave transposition (its pretty easy I promise)

So this is the intro that you'll see below. The only parts you'll
have to transpose are the rhythm parts on the top strings. To
transpose an octave you just move 2 strings down and 2 frets up.
I included an example below.
Intro (original on 8 string)

p.m.(rhythm only)------------------------------------------------

D--------------------------------|
A--------7---7---7---7---9---9---|
F7---7-------------7---7---9-----|
C--9---9---8---8---------------9-|
G--------------------------------|
D--------------------------------|
A--------7-7-7-7---------5-5-5-5-|
E5-5-5-5---------8-8-8-8---------|




Intro (transposed for 6 string string)

p.m.(rhythm only)------------------------------------------------

D--------------------------------|
A--------7---7---7---7---9---9---|
F7---7-------------7---7---9-----|
C--9---9---8---8---------------9-|
G--------9-9-9-9---------7-7-7-7-|
D7-7-7-7---------10101010--------|




Lead and Rhythm parts:
I also decided to put the lead and rhythm guitars together rather
than dobuling the amount of space it takes to write it. It's
pretty obvious which parts are which.



Rhytm:
I decided to count each "-" as a 16th note. For the most part this
worked out fine but when notes are on frets in double digits like
10, 11, 12, etc then I remove a "-" to keep my borders even. If
you see some thing like -44- then this means 2 16th notes played
on the 4th fret. I assume you wouldn't mistake it for the 44th
fret but I want to be clear just in case.

Contact:
If you feel I have made any mistakes, typos, or you just want to
say hi feel free to conact me at my facebook fan page or my
twitter.

http://www.facebook.com/pages/Kevin-Sherwood/119272406300?ref=nf
http://twitter.com/newdnewbs




*******************************************************************


Intro

guitar 1 (fx)

D--------------------------------|--------------------------------
A--------------------------------|--------------------------------
F--------------------------------|--------------------------------
C------------------7--7--7--7--7-|------------------7--7--7--7--7-
G467467467467467436-36-36-36-36-3|467467467467467436-36-36-36-36-3
D--------------------------------|--------------------------------
A--------------------------------|--------------------------------
E--------------------------------|--------------------------------



guitar 1 (fx)

D--------------------------------|--------------------------------
A--------------------------------|--------------------------------
F--------------------------------|--------------------------------
C------------------7--7--7--7--7-|------------------7--7--7--7--7-
G467467467467467436-36-36-36-36-3|467467467467467436-36-36-36-36-3
D--------------------------------|--------------------------------
A--------------------------------|--------------------------------
E--------------------------------|--------------------------------
|
guitar 2 (dist) |
|
D--------------------------------|--------------------------------
A--------------------------------|--------------------------------
F--------------------------------|------------------5--5--5--5--5-
C--------------------------------|------------------x--x--x--x--x-
G4---------------3---------------|4-----------------7--7--7--7--7-
D4---------------3---------------|4---------------55-55-55-55-55-5
A2---------------1---------------|2-------------------------------
E--------------------------------|--------------------------------




guitar 1 (fx) (This is 1 measure of 2/4 then back to 4/4)

D--------
A--------
F--------
C--------
G46746746
D--------
A--------
E--------




guitar 1 (fx)

D--------------------------------|--------------------------------
A--------------------------------|--------------------------------
F--------------------------------|--------------------------------
C------------------7--7--7--7--7-|------------------7--7--7--7--7-
G467467467467467436-36-36-36-36-3|467467467467467436-36-36-36-36-3
D--------------------------------|--------------------------------
A--------------------------------|--------------------------------
E--------------------------------|--------------------------------
|
guitar 2 (dist) |
|
D--------------------------------|--------------------------------
A--------------------------------|--------------------------------
F--------------------------------|--------------------------------
C--------------------------------|--------------------------------
G4-------4--4--4-3---------------|4-------4--4--4-----------------
D4-------4--4--4-3---------------|4-------4--4--4-----------------
A2-----222--2--2-1---------------|2-----222--2--2-----------------
E--------------------------------|----------------3--3--3-3--3--3-




guitar 1 (fx)

D--------------------------------|--------------------------------
A--------------------------------|--------------------------------
F--------------------------------|--------------------------------
C------------------7--7--7--7--7-|------------------7--7--7--7--7-
G467467467467467436-36-36-36-36-3|467467467467467436-36-36-36-36-3
D--------------------------------|--------------------------------
A--------------------------------|--------------------------------
E--------------------------------|--------------------------------
|
guitar 2 (dist) |
|
D--------------------------------|--------------------------------
A--------------------------------|--------------------------------
F--------------------------------|------------------5--5--5--5--5-
C--------------------------------|------------------x--x--x--x--x-
G--------------------------------|------------------7--7--7--7--7-
D--4-----4--4--4-----------------|--4-----4--4--4-55-55-55-55-55-5
A222---222--22222----------------|222---222--22222----------------
E----------------333---333--33333|--------------------------------




guitar 1 (fx)

D--------------------------------|--------------------------------
A--------------------------------|--------------------------------
F--------------------------------|--------------------------------
C------------------7--7--7--7--7-|12-12-12-12-12-1-67-67-6-67-67-6
G367367367367367336-36-36-36-36-2|--2--2--2--2--2-3--3--3-3--3--3-
D--------------------------------|--------------------------------
A--------------------------------|--------------------------------
E--------------------------------|--------------------------------
|
guitar 2 (dist) |
|
D--------------------------------|--------------------------------
A--------------------------------|--------------------------------
F--------------------------------|--------------------------------
C--------------------------------|--------------------------------
G--------------------------------|--------------------------------
D--4-----4--4--4-----------------|--7-----7--7--7-----------------
A222---222--22222----------------|555---555--55555----------------
E----------------333---333--33333|----------------2--2--2-2--2--2-




guitar 1 (fx) guitar 3 (lead)

D--------------------------------|----------------
A--------------------------------|----------------
F--6--6--6--6--6---6--6--6--6--6-|6---8---9---11--
C04-04-04-04-04-004-04-04-04-04-0|----------------
G--------------------------------|4---6---7---9---
D--------------------------------|----------------
A--------------------------------|----------------
E--------------------------------|----------------
|
guitar 2 (dist) |
|
D--------------------------------|----------------
A--------------------------------|----------------
F--------------------------------|----------------
C--------------------------------|----------------
G--------------------------------|----------------
D5-------------------------------|5---------------
A3-------------------------------|3---------------
E--------------------------------|----------------


Last edited by carbonfibah on Mon Aug 31, 2009 2:19 pm; edited 1 time in total

_________________
Don't forget to vote on good posts!



avatar
carbonfibah
Admin
Admin

Rice Rocket

Posts : 218
Kills : 12888
Join date : 2009-08-29

http://codzombies.forum0.net

Back to top Go down

Re: Guitar Tabs For "Beauty Of Annihiliation" by Kevin Sherwood

Post by carbonfibah on Mon Aug 31, 2009 2:17 pm

Intro Chorus

guitar 3 (lead)

D--------------------------------|--------------------------------
A--------------------------------|--------------------------------
F--------------------------------|--------------------------------
C------------6---7---6-4---------|6---6-7---6-----6---6-7---6-----
G----4-4-7-----------------7---7-|--------------7-----------------
D--------------------------------|--------------------------------
A--------------------------------|--------------------------------
E--------------------------------|--------------------------------
|
guitar 2 (dist) |
|
D--------------------------------|--------------------------------
A--------------------7-777777x555|--------------------------------
F--------------------5-555555x555|--------------------------------
C--------------------6-666666x666|--------------------------------
G----------------7---7-777777x777|--------79999999----------------
D4---4-----------5---5-555555x555|7---7-xx--------2---2-----------
A2---2-2255544400----------------|5---5-xx577777770---0-0055544400
E--------------------------------|--------------------------------




guitar 3 (lead)

D--------------------------------|----------------------------4542
A--------------------------------|--------------------------------
F--------------------------------|--------------------------------
C--------------------------------|6---6---7---6---6---6-7---6-----
G----4---6---7---0---2---6---7---|--------------------------------
D--------------------------------|--------------------------------
A--------------------------------|--------------------------------
E--------------------------------|--------------------------------
|
guitar 2 (dist) |
|
D--------------------------------|--------------------------------
A--------------------------------|--------------------------------
F--------------------8-8---------|--------------------------------
C----------------7---7-7-----9---|--------------------------------
G----------------7---7-7-----7---|--------79999777----------------
D4---4-----------5--55-5---5-5---|7---7-xx------------------------
A2---2-2255544400----------------|5---5-xx577775554---4-----------
E--------------------------------|----------------2---2-2255544422




guitar 3 (lead)

D4---------------2---------------|
A--------------------------5-----|
F--------------------------------|
C--------------------------------|
G--------------------------------|
D--------------------------------|
A--------------------------------|
E--------------------------------|
|
guitar 2 (dist) |
|
D--------------------------------|
A--------------------------------|
F--------------------------------|
C--------------------------------|
G--------------------------------|
D5-------------------------------|
A3-------------------------------|
E--------------------------------|



Verse1


D--------------------------------|--------------------------------
A--------------------------------|--------------------------------
F--------------------------------|--------------------------------
C--------------------------------|--------------------------------
G--------------------------------|--------------------------------
D4-4-------------4-4-------------|------------------------2-------
A2-2-------------2-2-------------|----------------------45-542----
E--------------------------------|3-3-------------3-3----------2-2




D--------------------------------|--------------------------------
A--------------------------------|--------------------------------
F--------------------------------|--------------------------------
C--------------------------------|--------------------------------
G--------------------------------|----------------------245-------
D4-4-------------4-4-------------|7-7-------------2-2-------------
A2-2-------------2-2-------------|5-5-------------0-0-------------
E--------------------------------|-------------------------2-2-2-2




guitar 1 (fx)

D--------------------------------|--------------------------------
A--------------------------------|--------------------------------
F--------------------------------|--------------------------------
C--------------------------------|--------------------------------
G----4------4------4------4--4---|----4------4------4------4--4---
D--4---4--4---4--4---4--4---4--4-|--4---4--4---4--4---4--4---4--4-
A2------2------2------2----------|--------------------------------
E--------------------------------|3------3------3------3----------
|
guitar 2 (dist) |
|
D--------------------------------|--------------------------------
A--------------------------------|--------------------------------
F--------------------------------|--------------------------------
C--------------------------------|--------------------------------
G--------------------------------|--------------------------------
D4-4-------------4-4-------------|------------------2-----2-------
A2-2-------------2-2-------------|--5-----5-------0-0---000-----00
E--------------------------------|3-3---333-----3-----------------




guitar 1 (fx)

D--------------------------------|--------------------------------
A--------------------------------|--------------------------------
F--------------------------------|--------------------------------
C--------------------------------|--------------------------------
G----4------4------4------4--4---|----7------7------7------9--9---
D--4---4--4---4--4---4--4---4--4-|--7---7--7---7--7---7--7---7--7-
A2------2------2------2----------|5------5------------------------
E--------------------------------|--------------5------5----------
|
guitar 2 (dist) |
|
D--------------------------------|--------------------------------
A--------------------------------|--------------------------------
F--------------------------------|--------------------------------
C--------------------------------|--------------------------------
G--------------------------------|--------------------------------
D4-4-------------4-4-------------|7-7---777-----7-2-2---222---2-22
A2-2-------------2-2-------------|5-5---555-----5-0-0---000---0-00
E--------------------------------|--------------------------------





Chorus 1

guitar 2 (dist)

D--------------------------------|--------------------------------
A--------------------7-777777x555|--------------------------------
F--------------------5-555555x555|--------------------------------
C--------------------6-666666x666|--------------------------------
G----------------7---7-777777x777|--------79999999----------------
D4---4-----------5---5-555555x555|7---7-xx--------2---2-----------
A2---2-2255544400----------------|5---5-xx577777770---0-0055544400
E--------------------------------|--------------------------------




guitar 3 (lead)

D--------------------------------|----------------------------4542
A--------------------------------|--------------------------------
F--------------------------------|--------------------------------
C--------------------------------|--------------------------------
G--------------------------------|--------------------------------
D--------------------------------|--------------------------------
A--------------------------------|--------------------------------
E--------------------------------|--------------------------------
|
guitar 2 (dist) |
|
D--------------------------------|--------------------------------
A--------------------------------|--------------------------------
F--------------------8-8---------|--------------------------------
C----------------7---7-7-----9---|--------------------------------
G----------------7---7-7-----7---|--------79999777----------------
D4---4-----------5--55-5---5-5---|7---7-xx------------------------
A2---2-2255544400----------------|5---5-xx577775554---4-----------
E--------------------------------|----------------2---2-2255544422




guitar 3 (lead)

D4---------------2---------------|
A--------------------------5-----|
F--------------------------------|
C--------------------------------|
G--------------------------------|
D--------------------------------|
A--------------------------------|
E--------------------------------|
|
guitar 2 (dist) |
|
D--------------------------------|
A--------------------------------|
F--------------------------------|
C--------------------------------|
G--------------------------------|
D5-------------------------------|
A3-------------------------------|
E--------------------------------|





verse 2

guitar 2 (dist)

D--------------------------------|--------------------------------
A--------------------------------|--------------------------------
F--------------------------------|--------------------------------
C--------------------------------|--------------------------------
G--------------------------------|--------------------------------
D4-4-------------4-4-------------|------------------2-----2-------
A2-2-------------2-2-------------|--5-----5-------0-0---000-----00
E--------------------------------|3-3---333-----3-----------------




guitar 2 (dist)

D--------------------------------|--------------------------------
A--------------------------------|--------------------------------
F--------------------------------|--------------------------------
C--------------------------------|--------------------------------
G--------------------------------|--------------------------------
D4-4-------------4-4-------------|7-7---777-----7-2-2---222---2-22
A2-2-------------2-2-------------|5-5---555-----5-0-0---000---0-00
E--------------------------------|--------------------------------

_________________
Don't forget to vote on good posts!



avatar
carbonfibah
Admin
Admin

Rice Rocket

Posts : 218
Kills : 12888
Join date : 2009-08-29

http://codzombies.forum0.net

Back to top Go down

Re: Guitar Tabs For "Beauty Of Annihiliation" by Kevin Sherwood

Post by carbonfibah on Mon Aug 31, 2009 2:18 pm

Chorus 2

guitar 3 (lead)

D--------------------------------|--------------------------------
A--------------------------------|--------------------------------
F--------------------------------|--------------------------------
C------------6---7---6-4---------|6---6-7---6-----6---6-7---6-----
G----4-4-7-----------------7---7-|--------------7-----------------
D--------------------------------|--------------------------------
A--------------------------------|--------------------------------
E--------------------------------|--------------------------------
|
guitar 2 (dist) |
|
D--------------------------------|--------------------------------
A--------------------7-777777x555|--------------------------------
F--------------------5-555555x555|--------------------------------
C--------------------6-666666x666|--------------------------------
G----------------7---7-777777x777|--------79999999----------------
D4---4-----------5---5-555555x555|7---7-xx--------2---2-----------
A2---2-2255544400----------------|5---5-xx577777770---0-0055544400
E--------------------------------|--------------------------------




guitar 3 (lead)

D--------------------------------|----------------------------4542
A--------------------------------|--------------------------------
F--------------------------------|--------------------------------
C--------------------------------|6---6---7---6---6---6-7---6-----
G----4---6---7---0---2---6---7---|--------------------------------
D--------------------------------|--------------------------------
A--------------------------------|--------------------------------
E--------------------------------|--------------------------------
|
guitar 2 (dist) |
|
D--------------------------------|--------------------------------
A--------------------------------|--------------------------------
F--------------------8-8---------|--------------------------------
C----------------7---7-7-----9---|--------------------------------
G----------------7---7-7-----7---|--------79999777----------------
D4---4-----------5--55-5---5-5---|7---7-xx------------------------
A2---2-2255544400----------------|5---5-xx577775554---4-----------
E--------------------------------|----------------2---2-2255544422




guitar 3 (lead)

D4---------------2---------------|4---------------5---------------
A--------------------------------|--------------------------------
F--------------------------------|--------------------------------
C--------------------------------|--------------------------------
G--------------------------------|--------------------------------
D--------------------------------|--------------------------------
A--------------------------------|--------------------------------
E--------------------------------|--------------------------------
|
guitar 4 (lead dbl) |
|
D4---------------2---------------|4---------------2---------------
A--------------------------------|--------------------------5-----
F--------------------------------|--------------------------------
C--------------------------------|--------------------------------
G--------------------------------|--------------------------------
D--------------------------------|--------------------------------
A--------------------------------|--------------------------------
E--------------------------------|--------------------------------
|
guitar 2 (dist) |
|
D--------------------------------|--------------------------------
A--------------------------------|--------------------------------
F--------------------------------|--------------------------------
C--------------------------------|--------------------------------
G--------------------------------|--------------------------------
D5-------------------------------|5-------------------------------
A3-------------------------------|3-------------------------------
E--------------------------------|--------------------------------




bridge

guitar 3 (lead)

D--------5---9---9---------------|--------5---9---9-----11----12--
A--------------------9-9---------|--------------------9-----------
F--------------------------------|--------------------------------
C--------------------------------|--------------------------------
G--------------------------------|--------------------------------
D--------------------------------|--------------------------------
A--------------------------------|--------------------------------
E--------------------------------|--------------------------------
|
guitar 2 (dist) |
|
D--------------------------------|--------------------------------
A--------------------------------|--------------------------------
F--------8---6-------------------|------8-8---------------68888999
C--------x---x-------------------|------x-x---9-------------------
G--7-----7---7-------------------|--7---7-7---7---4-4---4-46666777
D5-5---555---5-----4-------------|5-5--55-5-5-5---4-4---4---------
A----------------2-2---2255544400|----------------2-2---2---------
E--------------------------------|--------------------------------




guitar 3 (lead)

D--------5---9---9---------------|--------5---5---4---4-8---8---9-
A--------------------9-9---------|--------------------------------
F--------------------------------|--------------------------------
C--------------------------------|--------------------------------
G--------------------------------|--------------------------------
D--------------------------------|--------------------------------
A--------------------------------|--------------------------------
E--------------------------------|--------------------------------
|
guitar 2 (dist) |
|
D--------17----------------------|--------------------------------
A------------21------------------|--------------------------------
F--------------------------------|--------6--6--6-----------------
C--------------------------------|--------7--7--7---6-----7--4-6--
G--7-----------------------------|--7-----7--7--7---6-----6--6-6--
D5-5---5-----------4-------------|5-5---5-5--5--5-4-4---4-4--4-4--
A----------------2-2---2-5--4--0-|--------------------------------
E--------------------------------|--------------------------------




Interlude in 7/4 play 4x

guitar 2 (dist)

D----------------------------|
A----------------------------|
F----------------------------|
C----------------------------|
G----------------------------|
D----------------------------|
A2-02-x2-02-x2-02-x2-02-x2320|
E----------------------------|

_________________
Don't forget to vote on good posts!



avatar
carbonfibah
Admin
Admin

Rice Rocket

Posts : 218
Kills : 12888
Join date : 2009-08-29

http://codzombies.forum0.net

Back to top Go down

Re: Guitar Tabs For "Beauty Of Annihiliation" by Kevin Sherwood

Post by carbonfibah on Mon Aug 31, 2009 2:18 pm

Outro Chorus back in 4/4

guitar 3 (lead)

D--------------------------------|
A--------------------------------|
F--------------------------------|
C----------------7---6-4---------|
G--------------------------------|
D--------------------------------|
A--------------------------------|
E--------------------------------|
|
guitar 2 (dist) |
|
D--------------------------------|
A--------------------------------|
F--------------------------------|
C----------------9---------------|
G----------------7---------------|
D4---------------5---------------|
A2-------------------------------|
E--------------------------------|




guitar 3 (lead)

D--------------------------------|--------------------------------
A--------------------------------|--------------------------------
F----------------------6---------|--------------------------------
C------------6---7---6-----6---7-|6-----------6---7---6-4---------
G----4-4-7-----------------------|----4-4-7-----------------7---7-
D--------------------------------|--------------------------------
A--------------------------------|--------------------------------
E--------------------------------|--------------------------------
|
guitar 2 (dist) |
|
D--------------------------------|--------------------------------
A--------------------7-777777x555|--------------------------------
F--------------------5-555555x555|--------------------8-8---------
C--------------------6-666666x666|----------------7---7-7-----9---
G----------------7---7-777777x777|----------------7---7-7-----7---
D4---4-----------5---5-555555x555|4---4-----------5--55-5---5-5---
A2---2-2255544400----------------|2---2-2255544400----------------
E--------------------------------|--------------------------------





guitar 3 (lead)

D--------------------------------|
A--------------------------------|
F--------------------------------|
C6---6-7---6-----6---6-7---6-----|
G--------------7-----------------|
D--------------------------------|
A--------------------------------|
E--------------------------------|
|
guitar 2 (dist) |
|
D--------------------------------|
A--------------------------------|
F--------------------------------|
C--------------------------------|
G--------79999999----------------|
D7---7-xx--------2---2-----------|
A5---5-xx577777770---0-0055544400|
E--------------------------------|




guitar 3 (lead)

D--------------------------------|--------------------------------
A--------------------------------|--------------------------------
F--------------------------------|----------------------6---9---8-
C------------6---7---6-4---------|------------6---7---6-----------
G----4-4-7-----------------------|----4-4-7-----------------------
D--------------------------------|--------------------------------
A--------------------------------|--------------------------------
E--------------------------------|--------------------------------
|
guitar 2 (dist) |
|
D--------------------------------|--------------------------------
A--------------------7-777777x555|--------------------7-777777x555
F--------------------5-555555x555|--------------------5-555555x555
C--------------------6-666666x666|--------------------6-666666x666
G----------------7---7-777777x777|----------------7---7-777777x777
D4---4-----------5---5-555555x555|4---4-----------5---5-555555x555
A2---2-2255544400----------------|2---2-2255544400----------------
E--------------------------------|--------------------------------





guitar 3 (lead)

D--------------------------------|--------------------------------
A--------------------------------|--------------------------------
F--------------------------------|--------------------------------
C------------6---7---6-4---------|6---6-7---6-----6---6-7---6-----
G----4-4-7-----------------7---7-|--------------7-----------------
D--------------------------------|--------------------------------
A--------------------------------|--------------------------------
E--------------------------------|--------------------------------
|
guitar 2 (dist) |
|
D--------------------------------|--------------------------------
A--------------------------------|--------------------------------
F--------------------8-8---------|--------------------------------
C----------------7---7-7-----9---|--------------------------------
G----------------7---7-7-----7---|--------79999999----------------
D4---4-----------5--55-5---5-5---|7---7-xx--------2---2-----------
A2---2-2255544400----------------|5---5-xx577777770---0-0055544400
E--------------------------------|--------------------------------





Outro

guitar 3 (lead)

D--------------------------------|----------------------------4542
A--------------------------------|--------------------------------
F--------------------------------|--------------------------------
C--------------------------------|6---6---7---6---6---6-7---6-----
G----4---6---7---0---2---6---7---|--------------------------------
D--------------------------------|--------------------------------
A--------------------------------|--------------------------------
E--------------------------------|--------------------------------
|
guitar 2 (dist) |
|
D--------------------------------|--------------------------------
A--------------------------------|--------------------------------
F--------------------8-8---------|--------------------------------
C----------------7---7-7-----9---|--------------------------------
G----------------7---7-7-----7---|--------79999777----------------
D4---4-----------5--55-5---5-5---|7---7-xx------------------------
A2---2-2255544400----------------|5---5-xx577775554---4-----------
E--------------------------------|----------------2---2-2255544422





guitar 3 (lead)

D--------------------------------|--------------------------------
A--------------------------------|--------------------------------
F--------------------------------|--------6-----------------------
C6---6---7---6---6---6-7---6-----|6---6-6-----6---7---6---4---6---
G--------------------------------|--------------------------------
D--------------------------------|--------------------------------
A--------------------------------|--------------------------------
E--------------------------------|--------------------------------
|
guitar 2 (dist) |
|
D--------------------------------|--------------------------------
A--------------------------------|--------------------------------
F--------------------------------|--------------------------------
C--------------------------------|--------------------------------
G--------79999777----------------|7-7-----7-----7-4-4-----4-----4-
D7---7-xx------------------------|5-5---555-----5-2-2---222-----2-
A5---5-xx577775554---4-----------|--------------------------------
E----------------2---2-2255544422|--------------------------------





guitar 2 (dist)

D--------------------------------
A--------------------------------
F--------------------------------
C--------------------------------
G--------------------------------
D4---4---4---4---4---4-4---4-----
A2---2---2---2---2---2-2---2-----
E--------------------------------

_________________
Don't forget to vote on good posts!



avatar
carbonfibah
Admin
Admin

Rice Rocket

Posts : 218
Kills : 12888
Join date : 2009-08-29

http://codzombies.forum0.net

Back to top Go down

Re: Guitar Tabs For "Beauty Of Annihiliation" by Kevin Sherwood

Post by Kalriq on Sun Sep 06, 2009 6:29 am

Very good tabbing,
Couldnt have done better myself Wink
I will be playing this all day and may upload a recording so you can see your work has payed off for some people.
=)
Nice job.
-K-

Kalriq
Private
Private

Posts : 3
Kills : 11865
Join date : 2009-09-06

Back to top Go down

Re: Guitar Tabs For "Beauty Of Annihiliation" by Kevin Sherwood

Post by MaTtKs on Mon Sep 07, 2009 8:38 pm

Kalriq wrote:and may upload a recording
-K-
That would be awesome. thumbs up2

_________________
Follow: @_MaTtKs_
Follow: @WePlayCoD


avatar
MaTtKs
Admin
Admin

Pink Scar

Posts : 843
Kills : 14755
Join date : 2009-08-29

Back to top Go down

Re: Guitar Tabs For "Beauty Of Annihiliation" by Kevin Sherwood

Post by Kalriq on Tue Sep 08, 2009 1:25 pm

Edit: Ah never mind, forgot to read the first bit.
I wasn't sure about the 8 strings, all fine now.
-K-

Kalriq
Private
Private

Posts : 3
Kills : 11865
Join date : 2009-09-06

Back to top Go down

Re: Guitar Tabs For "Beauty Of Annihiliation" by Kevin Sherwood

Post by Sponsored content


Sponsored content


Back to top Go down

View previous topic View next topic Back to top

- Similar topics

 
Permissions in this forum:
You cannot reply to topics in this forum